999
"DXF R12 Output" (www.mydxf.blogspot.com)
 0 
SECTION
 2 
HEADER
 9 
$ACADVER
 1 
AC1009
 9 
$EXTMIN
 10 
 0 
 20 
 0 
 9 
$EXTMAX
 10 
 8.5 
 20 
 11 
 0 
ENDSEC
 0 
SECTION
 2 
ENTITIES
0
LINE
8
Capa 1
10
39.493309
20
107.633209
11
32.824425
21
107.633209
0
LINE
8
Capa 1
10
32.824425
20
107.633209
11
24.821763
21
135.205230
0
LINE
8
Capa 1
10
24.821763
20
135.205230
11
22.687721
21
141.721002
0
LINE
8
Capa 1
10
22.687721
20
141.721002
11
21.637371
21
144.207284
0
LINE
8
Capa 1
10
21.637371
20
144.207284
11
20.553678
21
146.179169
0
LINE
8
Capa 1
10
20.553678
20
146.179169
11
19.436639
21
147.653789
0
LINE
8
Capa 1
10
19.436639
20
147.653789
11
18.219568
21
148.648303
0
LINE
8
Capa 1
10
18.219568
20
148.648303
11
16.902463
21
149.265586
0
LINE
8
Capa 1
10
16.902463
20
149.265586
11
15.418637
21
149.471347
0
LINE
8
Capa 1
10
15.418637
20
149.471347
11
10.817106
21
149.471347
0
LINE
8
Capa 1
10
10.817106
20
149.471347
11
10.817106
21
107.633209
0
LINE
8
Capa 1
10
10.817106
20
107.633209
11
5.215244
21
107.633209
0
LINE
8
Capa 1
10
5.215244
20
107.633209
11
5.215244
21
205.987128
0
LINE
8
Capa 1
10
5.215244
20
205.987128
11
19.486656
21
205.987128
0
LINE
8
Capa 1
10
19.486656
20
205.987128
11
21.022584
21
205.884247
0
LINE
8
Capa 1
10
21.022584
20
205.884247
11
22.495990
21
205.575605
0
LINE
8
Capa 1
10
22.495990
20
205.575605
11
23.906876
21
205.061202
0
LINE
8
Capa 1
10
23.906876
20
205.061202
11
25.255241
21
204.341036
0
LINE
8
Capa 1
10
25.255241
20
204.341036
11
26.543169
21
203.445118
0
LINE
8
Capa 1
10
26.543169
20
203.445118
11
27.739401
21
202.334864
0
LINE
8
Capa 1
10
27.739401
20
202.334864
11
28.843935
21
201.010276
0
LINE
8
Capa 1
10
28.843935
20
201.010276
11
29.856772
21
199.471352
0
LINE
8
Capa 1
10
29.856772
20
199.471352
11
30.786247
21
197.722381
0
LINE
8
Capa 1
10
30.786247
20
197.722381
11
31.607353
21
195.767648
0
LINE
8
Capa 1
10
31.607353
20
195.767648
11
32.320090
21
193.607154
0
LINE
8
Capa 1
10
32.320090
20
193.607154
11
32.924458
21
191.240899
0
LINE
8
Capa 1
10
32.924458
20
191.240899
11
33.405868
21
188.698889
0
LINE
8
Capa 1
10
33.405868
20
188.698889
11
33.749732
21
185.942544
0
LINE
8
Capa 1
10
33.749732
20
185.942544
11
34.024824
21
179.786851
0
LINE
8
Capa 1
10
34.024824
20
179.786851
11
33.833093
21
174.848579
0
LINE
8
Capa 1
10
33.833093
20
174.848579
11
33.257902
21
170.321830
0
LINE
8
Capa 1
10
33.257902
20
170.321830
11
32.357603
21
166.292336
0
LINE
8
Capa 1
10
32.357603
20
166.292336
11
31.123859
21
162.708660
0
LINE
8
Capa 1
10
31.123859
20
162.708660
11
29.606688
21
159.587947
0
LINE
8
Capa 1
10
29.606688
20
159.587947
11
27.789417
21
156.947342
0
LINE
8
Capa 1
10
27.789417
20
156.947342
11
25.730399
21
154.872581
0
LINE
8
Capa 1
10
25.730399
20
154.872581
11
23.421298
21
153.312221
0
LINE
8
Capa 1
10
23.421298
20
153.312221
11
23.421298
21
153.037872
0
LINE
8
Capa 1
10
23.421298
20
153.037872
11
24.538336
21
151.854747
0
LINE
8
Capa 1
10
24.538336
20
151.854747
11
25.488652
21
150.500156
0
LINE
8
Capa 1
10
25.488652
20
150.500156
11
26.363943
21
148.991241
0
LINE
8
Capa 1
10
26.363943
20
148.991241
11
27.189218
21
147.207978
0
LINE
8
Capa 1
10
27.189218
20
147.207978
11
28.756405
21
142.818394
0
LINE
8
Capa 1
10
28.756405
20
142.818394
11
30.523660
21
137.194251
0
LINE
8
Capa 1
10
30.523660
20
137.194251
11
39.493309
21
107.633209
0
LINE
8
Capa 1
10
10.817106
20
195.561887
11
10.817106
21
159.896588
0
LINE
8
Capa 1
10
10.817106
20
159.896588
11
18.419634
21
159.896588
0
LINE
8
Capa 1
10
18.419634
20
159.896588
11
19.449143
21
159.978035
0
LINE
8
Capa 1
10
19.449143
20
159.978035
11
20.436972
21
160.222377
0
LINE
8
Capa 1
10
20.436972
20
160.222377
11
21.383120
21
160.629613
0
LINE
8
Capa 1
10
21.383120
20
160.629613
11
22.287588
21
161.199744
0
LINE
8
Capa 1
10
22.287588
20
161.199744
11
23.963145
21
162.777247
0
LINE
8
Capa 1
10
23.963145
20
162.777247
11
25.388619
21
164.903448
0
LINE
8
Capa 1
10
25.388619
20
164.903448
11
26.547338
21
167.629785
0
LINE
8
Capa 1
10
26.547338
20
167.629785
11
27.422629
21
170.870526
0
LINE
8
Capa 1
10
27.422629
20
170.870526
11
27.972811
21
174.642817
0
LINE
8
Capa 1
10
27.972811
20
174.642817
11
28.156206
21
178.826631
0
LINE
8
Capa 1
10
28.156206
20
178.826631
11
27.999904
21
182.551769
0
LINE
8
Capa 1
10
27.999904
20
182.551769
11
27.530998
21
185.839664
0
LINE
8
Capa 1
10
27.530998
20
185.839664
11
26.749488
21
188.690315
0
LINE
8
Capa 1
10
26.749488
20
188.690315
11
25.655374
21
191.103725
0
LINE
8
Capa 1
10
25.655374
20
191.103725
11
24.282001
21
193.054171
0
LINE
8
Capa 1
10
24.282001
20
193.054171
11
23.490592
21
193.820417
0
LINE
8
Capa 1
10
23.490592
20
193.820417
11
22.629368
21
194.447346
0
LINE
8
Capa 1
10
22.629368
20
194.447346
11
21.698329
21
194.934958
0
LINE
8
Capa 1
10
21.698329
20
194.934958
11
20.697475
21
195.283252
0
LINE
8
Capa 1
10
20.697475
20
195.283252
11
18.486323
21
195.561887
0
LINE
8
Capa 1
10
18.486323
20
195.561887
11
10.817106
21
195.561887
0
LINE
8
Capa 1
10
81.040461
20
147.413729
11
80.969474
21
142.397225
0
LINE
8
Capa 1
10
80.969474
20
142.397225
11
80.756513
21
137.704367
0
LINE
8
Capa 1
10
80.756513
20
137.704367
11
80.401577
21
133.335155
0
LINE
8
Capa 1
10
80.401577
20
133.335155
11
79.904667
21
129.289587
0
LINE
8
Capa 1
10
79.904667
20
129.289587
11
79.265782
21
125.567666
0
LINE
8
Capa 1
10
79.265782
20
125.567666
11
78.484924
21
122.169389
0
LINE
8
Capa 1
10
78.484924
20
122.169389
11
77.562090
21
119.094758
0
LINE
8
Capa 1
10
77.562090
20
119.094758
11
76.497283
21
116.343772
0
LINE
8
Capa 1
10
76.497283
20
116.343772
11
75.290501
21
113.916432
0
LINE
8
Capa 1
10
75.290501
20
113.916432
11
73.941746
21
111.812737
0
LINE
8
Capa 1
10
73.941746
20
111.812737
11
72.451015
21
110.032687
0
LINE
8
Capa 1
10
72.451015
20
110.032687
11
70.818311
21
108.576283
0
LINE
8
Capa 1
10
70.818311
20
108.576283
11
69.043632
21
107.443524
0
LINE
8
Capa 1
10
69.043632
20
107.443524
11
67.126978
21
106.634411
0
LINE
8
Capa 1
10
67.126978
20
106.634411
11
65.068351
21
106.148943
0
LINE
8
Capa 1
10
65.068351
20
106.148943
11
62.867749
21
105.987120
0
LINE
8
Capa 1
10
62.867749
20
105.987120
11
60.760017
21
106.142781
0
LINE
8
Capa 1
10
60.760017
20
106.142781
11
58.788268
21
106.609762
0
LINE
8
Capa 1
10
58.788268
20
106.609762
11
56.952501
21
107.388065
0
LINE
8
Capa 1
10
56.952501
20
107.388065
11
55.252717
21
108.477689
0
LINE
8
Capa 1
10
55.252717
20
108.477689
11
53.688916
21
109.878634
0
LINE
8
Capa 1
10
53.688916
20
109.878634
11
52.261097
21
111.590900
0
LINE
8
Capa 1
10
52.261097
20
111.590900
11
50.969262
21
113.614487
0
LINE
8
Capa 1
10
50.969262
20
113.614487
11
49.813409
21
115.949396
0
LINE
8
Capa 1
10
49.813409
20
115.949396
11
48.793538
21
118.595625
0
LINE
8
Capa 1
10
48.793538
20
118.595625
11
47.909651
21
121.553176
0
LINE
8
Capa 1
10
47.909651
20
121.553176
11
47.161746
21
124.822048
0
LINE
8
Capa 1
10
47.161746
20
124.822048
11
46.549823
21
128.402241
0
LINE
8
Capa 1
10
46.549823
20
128.402241
11
46.073884
21
132.293755
0
LINE
8
Capa 1
10
46.073884
20
132.293755
11
45.733927
21
136.496590
0
LINE
8
Capa 1
10
45.733927
20
136.496590
11
45.461962
21
145.836224
0
LINE
8
Capa 1
10
45.461962
20
145.836224
11
45.461962
21
205.987128
0
LINE
8
Capa 1
10
45.461962
20
205.987128
11
51.063824
21
205.987128
0
LINE
8
Capa 1
10
51.063824
20
205.987128
11
51.063824
21
146.590684
0
LINE
8
Capa 1
10
51.063824
20
146.590684
11
51.257639
21
139.501566
0
LINE
8
Capa 1
10
51.257639
20
139.501566
11
51.839082
21
133.357663
0
LINE
8
Capa 1
10
51.839082
20
133.357663
11
52.808154
21
128.158977
0
LINE
8
Capa 1
10
52.808154
20
128.158977
11
53.438051
21
125.914089
0
LINE
8
Capa 1
10
53.438051
20
125.914089
11
54.164855
21
123.905506
0
LINE
8
Capa 1
10
54.164855
20
123.905506
11
54.988567
21
122.133226
0
LINE
8
Capa 1
10
54.988567
20
122.133226
11
55.909186
21
120.597250
0
LINE
8
Capa 1
10
55.909186
20
120.597250
11
56.926711
21
119.297579
0
LINE
8
Capa 1
10
56.926711
20
119.297579
11
58.041145
21
118.234211
0
LINE
8
Capa 1
10
58.041145
20
118.234211
11
59.252485
21
117.407147
0
LINE
8
Capa 1
10
59.252485
20
117.407147
11
60.560733
21
116.816387
0
LINE
8
Capa 1
10
60.560733
20
116.816387
11
61.965887
21
116.461931
0
LINE
8
Capa 1
10
61.965887
20
116.461931
11
63.467949
21
116.343779
0
LINE
8
Capa 1
10
63.467949
20
116.343779
11
64.917520
21
116.457913
0
LINE
8
Capa 1
10
64.917520
20
116.457913
11
66.273570
21
116.800312
0
LINE
8
Capa 1
10
66.273570
20
116.800312
11
67.536100
21
117.370978
0
LINE
8
Capa 1
10
67.536100
20
117.370978
11
68.705108
21
118.169910
0
LINE
8
Capa 1
10
68.705108
20
118.169910
11
69.780596
21
119.197109
0
LINE
8
Capa 1
10
69.780596
20
119.197109
11
70.762563
21
120.452574
0
LINE
8
Capa 1
10
70.762563
20
120.452574
11
71.651010
21
121.936306
0
LINE
8
Capa 1
10
71.651010
20
121.936306
11
72.445936
21
123.648303
0
LINE
8
Capa 1
10
72.445936
20
123.648303
11
73.147341
21
125.588568
0
LINE
8
Capa 1
10
73.147341
20
125.588568
11
73.755226
21
127.757098
0
LINE
8
Capa 1
10
73.755226
20
127.757098
11
74.690433
21
132.778958
0
LINE
8
Capa 1
10
74.690433
20
132.778958
11
75.251557
21
138.713884
0
LINE
8
Capa 1
10
75.251557
20
138.713884
11
75.438598
21
145.561875
0
LINE
8
Capa 1
10
75.438598
20
145.561875
11
75.438598
21
205.987128
0
LINE
8
Capa 1
10
75.438598
20
205.987128
11
81.040461
21
205.987128
0
LINE
8
Capa 1
10
81.040461
20
205.987128
11
81.040461
21
147.413729
0
LINE
8
Capa 1
10
92.977760
20
107.633209
11
92.977760
21
205.987128
0
LINE
8
Capa 1
10
92.977760
20
205.987128
11
106.582289
21
205.987128
0
LINE
8
Capa 1
10
106.582289
20
205.987128
11
108.092686
21
205.889606
0
LINE
8
Capa 1
10
108.092686
20
205.889606
11
109.522848
21
205.597039
0
LINE
8
Capa 1
10
109.522848
20
205.597039
11
110.872776
21
205.109427
0
LINE
8
Capa 1
10
110.872776
20
205.109427
11
112.142468
21
204.426771
0
LINE
8
Capa 1
10
112.142468
20
204.426771
11
113.331926
21
203.549070
0
LINE
8
Capa 1
10
113.331926
20
203.549070
11
114.441149
21
202.476325
0
LINE
8
Capa 1
10
114.441149
20
202.476325
11
115.470137
21
201.208535
0
LINE
8
Capa 1
10
115.470137
20
201.208535
11
116.418890
21
199.745700
0
LINE
8
Capa 1
10
116.418890
20
199.745700
11
117.270736
21
198.126402
0
LINE
8
Capa 1
10
117.270736
20
198.126402
11
118.009003
21
196.389219
0
LINE
8
Capa 1
10
118.009003
20
196.389219
11
119.144797
21
192.561200
0
LINE
8
Capa 1
10
119.144797
20
192.561200
11
119.826274
21
188.261646
0
LINE
8
Capa 1
10
119.826274
20
188.261646
11
120.053433
21
183.490555
0
LINE
8
Capa 1
10
120.053433
20
183.490555
11
119.915887
21
179.443916
0
LINE
8
Capa 1
10
119.915887
20
179.443916
11
119.503250
21
175.671624
0
LINE
8
Capa 1
10
119.503250
20
175.671624
11
118.815521
21
172.173682
0
LINE
8
Capa 1
10
118.815521
20
172.173682
11
117.852700
21
168.950088
0
LINE
8
Capa 1
10
117.852700
20
168.950088
11
116.648133
21
166.086576
0
LINE
8
Capa 1
10
116.648133
20
166.086576
11
115.235164
21
163.668880
0
LINE
8
Capa 1
10
115.235164
20
163.668880
11
113.613792
21
161.697000
0
LINE
8
Capa 1
10
113.613792
20
161.697000
11
111.784019
21
160.170936
0
LINE
8
Capa 1
10
111.784019
20
160.170936
11
111.784019
21
159.896588
0
LINE
8
Capa 1
10
111.784019
20
159.896588
11
112.962536
21
159.523646
0
LINE
8
Capa 1
10
112.962536
20
159.523646
11
114.080616
21
158.987809
0
LINE
8
Capa 1
10
114.080616
20
158.987809
11
115.138259
21
158.289079
0
LINE
8
Capa 1
10
115.138259
20
158.289079
11
116.135465
21
157.427453
0
LINE
8
Capa 1
10
116.135465
20
157.427453
11
117.072235
21
156.402934
0
LINE
8
Capa 1
10
117.072235
20
156.402934
11
117.948568
21
155.215520
0
LINE
8
Capa 1
10
117.948568
20
155.215520
11
119.519923
21
152.352009
0
LINE
8
Capa 1
10
119.519923
20
152.352009
11
120.789094
21
148.956944
0
LINE
8
Capa 1
10
120.789094
20
148.956944
11
121.695645
21
145.081770
0
LINE
8
Capa 1
10
121.695645
20
145.081770
11
122.239576
21
140.726486
0
LINE
8
Capa 1
10
122.239576
20
140.726486
11
122.420886
21
135.891094
0
LINE
8
Capa 1
10
122.420886
20
135.891094
11
122.145794
21
129.881148
0
LINE
8
Capa 1
10
122.145794
20
129.881148
11
121.801930
21
127.101227
0
LINE
8
Capa 1
10
121.801930
20
127.101227
11
121.320519
21
124.471341
0
LINE
8
Capa 1
10
121.320519
20
124.471341
11
120.701563
21
121.991488
0
LINE
8
Capa 1
10
120.701563
20
121.991488
11
119.945062
21
119.661670
0
LINE
8
Capa 1
10
119.945062
20
119.661670
11
119.051014
21
117.481887
0
LINE
8
Capa 1
10
119.051014
20
117.481887
11
118.019420
21
115.452137
0
LINE
8
Capa 1
10
118.019420
20
115.452137
11
116.883106
21
113.619576
0
LINE
8
Capa 1
10
116.883106
20
113.619576
11
115.674893
21
112.031356
0
LINE
8
Capa 1
10
115.674893
20
112.031356
11
114.394780
21
110.687478
0
LINE
8
Capa 1
10
114.394780
20
110.687478
11
113.042768
21
109.587941
0
LINE
8
Capa 1
10
113.042768
20
109.587941
11
111.618857
21
108.732745
0
LINE
8
Capa 1
10
111.618857
20
108.732745
11
110.123047
21
108.121892
0
LINE
8
Capa 1
10
110.123047
20
108.121892
11
108.555338
21
107.755379
0
LINE
8
Capa 1
10
108.555338
20
107.755379
11
106.915729
21
107.633209
0
LINE
8
Capa 1
10
106.915729
20
107.633209
11
92.977760
21
107.633209
0
LINE
8
Capa 1
10
98.579623
20
195.561887
11
98.579623
21
163.806054
0
LINE
8
Capa 1
10
98.579623
20
163.806054
11
104.314864
21
163.806054
0
LINE
8
Capa 1
10
104.314864
20
163.806054
11
106.492673
21
164.088976
0
LINE
8
Capa 1
10
106.492673
20
164.088976
11
107.489360
21
164.442628
0
LINE
8
Capa 1
10
107.489360
20
164.442628
11
108.424567
21
164.937741
0
LINE
8
Capa 1
10
108.424567
20
164.937741
11
110.110545
21
166.352351
0
LINE
8
Capa 1
10
110.110545
20
166.352351
11
111.550607
21
168.332804
0
LINE
8
Capa 1
10
111.550607
20
168.332804
11
112.703073
21
170.861953
0
LINE
8
Capa 1
10
112.703073
20
170.861953
11
113.526263
21
173.854066
0
LINE
8
Capa 1
10
113.526263
20
173.854066
11
114.020177
21
177.309142
0
LINE
8
Capa 1
10
114.020177
20
177.309142
11
114.184815
21
181.227181
0
LINE
8
Capa 1
10
114.184815
20
181.227181
11
114.041538
21
184.586878
0
LINE
8
Capa 1
10
114.041538
20
184.586878
11
113.611708
21
187.498615
0
LINE
8
Capa 1
10
113.611708
20
187.498615
11
112.895324
21
189.962392
0
LINE
8
Capa 1
10
112.895324
20
189.962392
11
111.892386
21
191.978210
0
LINE
8
Capa 1
10
111.892386
20
191.978210
11
110.602895
21
193.546069
0
LINE
8
Capa 1
10
110.602895
20
193.546069
11
109.026851
21
194.665968
0
LINE
8
Capa 1
10
109.026851
20
194.665968
11
107.164253
21
195.337907
0
LINE
8
Capa 1
10
107.164253
20
195.337907
11
105.015101
21
195.561887
0
LINE
8
Capa 1
10
105.015101
20
195.561887
11
98.579623
21
195.561887
0
LINE
8
Capa 1
10
98.579623
20
153.449402
11
98.579623
21
118.058451
0
LINE
8
Capa 1
10
98.579623
20
118.058451
11
106.182156
21
118.058451
0
LINE
8
Capa 1
10
106.182156
20
118.058451
11
107.380991
21
118.133469
0
LINE
8
Capa 1
10
107.380991
20
118.133469
11
108.510011
21
118.358520
0
LINE
8
Capa 1
10
108.510011
20
118.358520
11
109.569217
21
118.733606
0
LINE
8
Capa 1
10
109.569217
20
118.733606
11
110.558608
21
119.258726
0
LINE
8
Capa 1
10
110.558608
20
119.258726
11
111.478184
21
119.933881
0
LINE
8
Capa 1
10
111.478184
20
119.933881
11
112.327946
21
120.759070
0
LINE
8
Capa 1
10
112.327946
20
120.759070
11
113.818025
21
122.859551
0
LINE
8
Capa 1
10
113.818025
20
122.859551
11
115.014256
21
125.483008
0
LINE
8
Capa 1
10
115.014256
20
125.483008
11
115.868707
21
128.552281
0
LINE
8
Capa 1
10
115.868707
20
128.552281
11
116.381377
21
132.067370
0
LINE
8
Capa 1
10
116.381377
20
132.067370
11
116.552268
21
136.028275
0
LINE
8
Capa 1
10
116.552268
20
136.028275
11
116.371999
21
140.111351
0
LINE
8
Capa 1
10
116.371999
20
140.111351
11
115.831195
21
143.650018
0
LINE
8
Capa 1
10
115.831195
20
143.650018
11
114.929854
21
146.644274
0
LINE
8
Capa 1
10
114.929854
20
146.644274
11
113.667976
21
149.094120
0
LINE
8
Capa 1
10
113.667976
20
149.094120
11
112.901836
21
150.114889
0
LINE
8
Capa 1
10
112.901836
20
150.114889
11
112.045562
21
150.999556
0
LINE
8
Capa 1
10
112.045562
20
150.999556
11
111.099154
21
151.748120
0
LINE
8
Capa 1
10
111.099154
20
151.748120
11
110.062611
21
152.360581
0
LINE
8
Capa 1
10
110.062611
20
152.360581
11
108.935935
21
152.836940
0
LINE
8
Capa 1
10
108.935935
20
152.836940
11
107.719125
21
153.177197
0
LINE
8
Capa 1
10
107.719125
20
153.177197
11
105.015101
21
153.449402
0
LINE
8
Capa 1
10
105.015101
20
153.449402
11
98.579623
21
153.449402
0
LINE
8
Capa 1
10
157.465867
20
107.633209
11
132.124110
21
107.633209
0
LINE
8
Capa 1
10
132.124110
20
107.633209
11
132.124110
21
205.987128
0
LINE
8
Capa 1
10
132.124110
20
205.987128
11
156.398847
21
205.987128
0
LINE
8
Capa 1
10
156.398847
20
205.987128
11
156.398847
21
195.561887
0
LINE
8
Capa 1
10
156.398847
20
195.561887
11
137.725973
21
195.561887
0
LINE
8
Capa 1
10
137.725973
20
195.561887
11
137.725973
21
162.845834
0
LINE
8
Capa 1
10
137.725973
20
162.845834
11
154.998380
21
162.845834
0
LINE
8
Capa 1
10
154.998380
20
162.845834
11
154.998380
21
152.489176
0
LINE
8
Capa 1
10
154.998380
20
152.489176
11
137.725973
21
152.489176
0
LINE
8
Capa 1
10
137.725973
20
152.489176
11
137.725973
21
118.058452
0
LINE
8
Capa 1
10
137.725973
20
118.058452
11
157.465867
21
118.058452
0
LINE
8
Capa 1
10
157.465867
20
118.058452
11
157.465867
21
107.633209
0
LINE
8
Capa 1
10
205.215085
20
107.633209
11
198.346132
21
107.633209
0
LINE
8
Capa 1
10
198.346132
20
107.633209
11
173.737954
21
186.028279
0
LINE
8
Capa 1
10
173.737954
20
186.028279
11
172.887667
21
189.046112
0
LINE
8
Capa 1
10
172.887667
20
189.046112
11
172.204108
21
192.201119
0
LINE
8
Capa 1
10
172.204108
20
192.201119
11
172.004039
21
192.201119
0
LINE
8
Capa 1
10
172.004039
20
192.201119
11
172.204105
21
187.245699
0
LINE
8
Capa 1
10
172.204105
20
187.245699
11
172.270794
21
178.689457
0
LINE
8
Capa 1
10
172.270794
20
178.689457
11
172.270794
21
107.633209
0
LINE
8
Capa 1
10
172.270794
20
107.633209
11
166.668931
21
107.633209
0
LINE
8
Capa 1
10
166.668931
20
107.633209
11
166.668931
21
205.987128
0
LINE
8
Capa 1
10
166.668931
20
205.987128
11
173.938016
21
205.987128
0
LINE
8
Capa 1
10
173.938016
20
205.987128
11
197.879314
21
128.826626
0
LINE
8
Capa 1
10
197.879314
20
128.826626
11
199.813291
21
122.242271
0
LINE
8
Capa 1
10
199.813291
20
122.242271
11
199.946669
21
122.242271
0
LINE
8
Capa 1
10
199.946669
20
122.242271
11
199.696583
21
127.986432
0
LINE
8
Capa 1
10
199.696583
20
127.986432
11
199.613222
21
136.714138
0
LINE
8
Capa 1
10
199.613222
20
136.714138
11
199.613222
21
205.987128
0
LINE
8
Capa 1
10
199.613222
20
205.987128
11
205.215085
21
205.987128
0
LINE
8
Capa 1
10
205.215085
20
205.987128
11
205.215085
21
107.633209
 0 
ENDSEC
 0 
EOF